Люмен - Три пути+Аккорды,табы mp3 320kbps


Люмен - Три пути+Аккорды,табы в отличном качестве и совершенно бесплатно

Скачать


Другие песни исполнителя Люмен
Текст песни:


F Dm Am Em F
Время за полночь, и мне осталось три пути.
F Dm Am G F
Не один ли бес, куда ступать, зачем идти?
Опустились руки, поднялись корни.
Монету на удачу. Руку черт не дерни!

Первая дорога – сидеть. Ждать. Смирно.
Быть каменно спокойным, быть абсолютно мирным,
Только ветер знает, сколько нужно силы,
Чтобы не слететь с катушек и ждать судьбы красиво!

Второй выбор мне – стряхнуть пыль, сорваться!
Извините, мол, но не могу остаться!
И лететь мчаться в неизбежность зимы,
А как замерзнуть просто знают звери и мы!

Соло:

F Dm Am Em
e|---------------------------------------------------|
H|---------------------------------------------------|
G|-5--4---5--4-----7--5-4-5--4-----5--4---------4----|
D|------5-------5---------------5--------5--5-7---5--|

F Dm Am
e|---------------------------------------------------|
H|---------------------------------------------------|
G|-5--4---5--4-----7--5-4-5--4--5--7----9~~----------|
D|------5-------5------------------------------------|

F Dm Am Em
e|-8--7-----8--7-----10--8-7-8--7-----8--7----------7----|
H|-------8--------8----------------8--------8--8-10---8--|
G|-------------------------------------------------------|

F Dm Am
e|-8--7-----8--7-----10--8-7-8--7--8---10----12~~--------|
H|-------8--------8--------------------------------------|
G|-------------------------------------------------------|

А про третий путь не скажу ни слова.
Он у каждого свой – раз и готово!
О том, как все просто, знают телефона провода.
Этот третий путь будет всем всегда-всегда!

Видео
Lumen - Три пути (cover)
Комментарии (0)
Добавить комментарий